ISO-10303-21;
HEADER;
/* Generated by software containing ST-Developer
 * from STEP Tools, Inc. (www.steptools.com) 
 */

FILE_DESCRIPTION(
/* description */ (''),
/* implementation_level */ '2;1');

FILE_NAME(
/* name */ '',
/* time_stamp */ '2025-07-24T08:02:45+07:00',
/* author */ ('zeta-86'),
/* organization */ (''),
/* preprocessor_version */ 'ST-DEVELOPER v19.2',
/* originating_system */ 'Autodesk Inventor 2024',
/* authorisation */ '');

FILE_SCHEMA (('AUTOMOTIVE_DESIGN { 1 0 10303 214 3 1 1 }'));
ENDSEC;

DATA;
#10=MECHANICAL_DESIGN_GEOMETRIC_PRESENTATION_REPRESENTATION('',(#13),#492);
#11=SHAPE_REPRESENTATION_RELATIONSHIP('SRR','None',#499,#12);
#12=ADVANCED_BREP_SHAPE_REPRESENTATION('',(#14),#491);
#13=STYLED_ITEM('',(#508),#14);
#14=MANIFOLD_SOLID_BREP('\X2\04220432043504400434043E0435\X0\ \X2\04420435043B043E\X0\2',
#221);
#15=TOROIDAL_SURFACE('',#276,31.9,1.25);
#16=(
BOUNDED_CURVE()
B_SPLINE_CURVE(2,(#484,#485,#486),.UNSPECIFIED.,.F.,.F.)
B_SPLINE_CURVE_WITH_KNOTS((3,3),(-1.4867822334636,-1.36570266611567),
 .UNSPECIFIED.)
CURVE()
GEOMETRIC_REPRESENTATION_ITEM()
RATIONAL_B_SPLINE_CURVE((0.997642106637057,0.996990032594401,1.))
REPRESENTATION_ITEM('')
);
#17=(
BOUNDED_SURFACE()
B_SPLINE_SURFACE(2,2,((#457,#458,#459,#460,#461,#462,#463,#464,#465),(#466,
#467,#468,#469,#470,#471,#472,#473,#474),(#475,#476,#477,#478,#479,#480,
#481,#482,#483)),.UNSPECIFIED.,.F.,.T.,.F.)
B_SPLINE_SURFACE_WITH_KNOTS((3,3),(3,2,2,2,3),(1.36570266611567,1.56474222170285),
(-3.14159265358979,-1.5707963267949,0.,1.5707963267949,3.14159265358979),
 .UNSPECIFIED.)
GEOMETRIC_REPRESENTATION_ITEM()
RATIONAL_B_SPLINE_SURFACE(((1.,0.707106781186548,1.,0.707106781186548,1.,
0.707106781186548,1.,0.707106781186548,1.),(0.995051992769178,0.703608011720273,
0.995051992769178,0.703608011720273,0.995051992769178,0.703608011720273,
0.995051992769178,0.703608011720273,0.995051992769178),(1.,0.707106781186548,
1.,0.707106781186548,1.,0.707106781186548,1.,0.707106781186548,1.)))
REPRESENTATION_ITEM('')
SURFACE()
);
#18=CONICAL_SURFACE('',#262,28.25,0.78539816339744);
#19=CONICAL_SURFACE('',#266,31.075,0.785398163397448);
#20=CONICAL_SURFACE('',#272,31.075,0.785398163397442);
#21=B_SPLINE_CURVE_WITH_KNOTS('',3,(#376,#377,#378,#379,#380,#381,#382,
#383,#384,#385,#386,#387,#388,#389,#390,#391,#392,#393,#394,#395,#396,#397),
 .UNSPECIFIED.,.F.,.F.,(4,2,2,2,2,2,2,2,2,2,4),(9.99999999012663E-7,0.71841514300652,
1.07372977614551,1.1983045952132,1.28810101554285,1.40081485222193,1.51352868890101,
1.60332510923075,1.72789992829861,2.08321456143784,2.80162870444524),
 .UNSPECIFIED.);
#22=B_SPLINE_CURVE_WITH_KNOTS('',3,(#402,#403,#404,#405,#406,#407,#408,
#409,#410,#411,#412,#413,#414,#415,#416,#417,#418,#419,#420,#421,#422,#423),
 .UNSPECIFIED.,.F.,.F.,(4,2,2,2,2,2,2,2,2,2,4),(-2.80162870444169,-2.08321456143607,
-1.72789992829819,-1.60332510923076,-1.51352868890128,-1.40081485222208,
-1.28810101554312,-1.19830459521355,-1.07372977614614,-0.718415143008302,
-9.9999999880751E-7),.UNSPECIFIED.);
#23=LINE('',#369,#29);
#24=LINE('',#432,#30);
#25=LINE('',#441,#31);
#26=LINE('',#448,#32);
#27=LINE('',#450,#33);
#28=LINE('',#456,#34);
#29=VECTOR('',#296,30.65);
#30=VECTOR('',#319,28.25);
#31=VECTOR('',#330,31.075);
#32=VECTOR('',#339,31.5);
#33=VECTOR('',#342,31.075);
#34=VECTOR('',#349,34.);
#35=CYLINDRICAL_SURFACE('',#249,30.65);
#36=CYLINDRICAL_SURFACE('',#258,52.2319927605953);
#37=CYLINDRICAL_SURFACE('',#269,31.5);
#38=CYLINDRICAL_SURFACE('',#273,34.);
#39=FACE_BOUND('',#56,.T.);
#40=FACE_BOUND('',#64,.T.);
#41=FACE_OUTER_BOUND('',#55,.T.);
#42=FACE_OUTER_BOUND('',#57,.T.);
#43=FACE_OUTER_BOUND('',#58,.T.);
#44=FACE_OUTER_BOUND('',#59,.T.);
#45=FACE_OUTER_BOUND('',#60,.T.);
#46=FACE_OUTER_BOUND('',#61,.T.);
#47=FACE_OUTER_BOUND('',#62,.T.);
#48=FACE_OUTER_BOUND('',#63,.T.);
#49=FACE_OUTER_BOUND('',#65,.T.);
#50=FACE_OUTER_BOUND('',#66,.T.);
#51=FACE_OUTER_BOUND('',#67,.T.);
#52=FACE_OUTER_BOUND('',#68,.T.);
#53=FACE_OUTER_BOUND('',#69,.T.);
#54=FACE_OUTER_BOUND('',#70,.T.);
#55=EDGE_LOOP('',(#142));
#56=EDGE_LOOP('',(#143));
#57=EDGE_LOOP('',(#144));
#58=EDGE_LOOP('',(#145,#146,#147,#148,#149,#150));
#59=EDGE_LOOP('',(#151,#152));
#60=EDGE_LOOP('',(#153,#154));
#61=EDGE_LOOP('',(#155,#156,#157,#158,#159));
#62=EDGE_LOOP('',(#160,#161,#162,#163));
#63=EDGE_LOOP('',(#164));
#64=EDGE_LOOP('',(#165));
#65=EDGE_LOOP('',(#166,#167,#168,#169,#170));
#66=EDGE_LOOP('',(#171,#172,#173,#174,#175,#176));
#67=EDGE_LOOP('',(#177,#178,#179,#180,#181,#182));
#68=EDGE_LOOP('',(#183,#184,#185,#186,#187));
#69=EDGE_LOOP('',(#188,#189,#190,#191,#192,#193,#194,#195,#196));
#70=EDGE_LOOP('',(#197,#198,#199,#200,#201));
#71=CIRCLE('',#245,34.);
#72=CIRCLE('',#246,32.9566869434823);
#73=CIRCLE('',#248,28.);
#74=CIRCLE('',#250,30.65);
#75=CIRCLE('',#251,30.65);
#76=CIRCLE('',#252,30.65);
#77=CIRCLE('',#253,30.65);
#78=CIRCLE('',#255,52.2319927605953);
#79=CIRCLE('',#257,52.2319927605953);
#80=CIRCLE('',#259,58.0341229422602);
#81=CIRCLE('',#260,58.0437747038856);
#82=CIRCLE('',#261,58.0341229422044);
#83=CIRCLE('',#263,28.5);
#84=CIRCLE('',#265,30.65);
#85=CIRCLE('',#267,31.5);
#86=CIRCLE('',#268,31.5);
#87=CIRCLE('',#270,31.5);
#88=CIRCLE('',#271,31.5);
#89=CIRCLE('',#274,34.);
#90=CIRCLE('',#275,34.);
#91=CIRCLE('',#277,1.25);
#92=VERTEX_POINT('',#356);
#93=VERTEX_POINT('',#358);
#94=VERTEX_POINT('',#361);
#95=VERTEX_POINT('',#364);
#96=VERTEX_POINT('',#365);
#97=VERTEX_POINT('',#368);
#98=VERTEX_POINT('',#370);
#99=VERTEX_POINT('',#374);
#100=VERTEX_POINT('',#375);
#101=VERTEX_POINT('',#400);
#102=VERTEX_POINT('',#401);
#103=VERTEX_POINT('',#426);
#104=VERTEX_POINT('',#431);
#105=VERTEX_POINT('',#435);
#106=VERTEX_POINT('',#438);
#107=VERTEX_POINT('',#439);
#108=VERTEX_POINT('',#444);
#109=VERTEX_POINT('',#445);
#110=VERTEX_POINT('',#452);
#111=VERTEX_POINT('',#453);
#112=EDGE_CURVE('',#92,#92,#71,.T.);
#113=EDGE_CURVE('',#93,#93,#72,.T.);
#114=EDGE_CURVE('',#94,#94,#73,.T.);
#115=EDGE_CURVE('',#95,#96,#74,.T.);
#116=EDGE_CURVE('',#96,#95,#75,.T.);
#117=EDGE_CURVE('',#96,#97,#23,.T.);
#118=EDGE_CURVE('',#97,#98,#76,.T.);
#119=EDGE_CURVE('',#98,#97,#77,.T.);
#120=EDGE_CURVE('',#99,#100,#21,.T.);
#121=EDGE_CURVE('',#100,#99,#78,.T.);
#122=EDGE_CURVE('',#101,#102,#22,.T.);
#123=EDGE_CURVE('',#102,#101,#79,.T.);
#124=EDGE_CURVE('',#102,#103,#80,.T.);
#125=EDGE_CURVE('',#100,#101,#81,.T.);
#126=EDGE_CURVE('',#103,#99,#82,.T.);
#127=EDGE_CURVE('',#94,#104,#24,.T.);
#128=EDGE_CURVE('',#104,#104,#83,.T.);
#129=EDGE_CURVE('',#105,#105,#84,.T.);
#130=EDGE_CURVE('',#106,#107,#85,.T.);
#131=EDGE_CURVE('',#107,#105,#25,.T.);
#132=EDGE_CURVE('',#107,#106,#86,.T.);
#133=EDGE_CURVE('',#108,#109,#87,.T.);
#134=EDGE_CURVE('',#109,#108,#88,.T.);
#135=EDGE_CURVE('',#109,#106,#26,.T.);
#136=EDGE_CURVE('',#108,#98,#27,.T.);
#137=EDGE_CURVE('',#110,#111,#89,.T.);
#138=EDGE_CURVE('',#111,#110,#90,.T.);
#139=EDGE_CURVE('',#111,#92,#28,.T.);
#140=EDGE_CURVE('',#103,#110,#16,.T.);
#141=EDGE_CURVE('',#95,#93,#91,.T.);
#142=ORIENTED_EDGE('',*,*,#112,.F.);
#143=ORIENTED_EDGE('',*,*,#113,.T.);
#144=ORIENTED_EDGE('',*,*,#114,.F.);
#145=ORIENTED_EDGE('',*,*,#115,.F.);
#146=ORIENTED_EDGE('',*,*,#116,.F.);
#147=ORIENTED_EDGE('',*,*,#117,.T.);
#148=ORIENTED_EDGE('',*,*,#118,.T.);
#149=ORIENTED_EDGE('',*,*,#119,.T.);
#150=ORIENTED_EDGE('',*,*,#117,.F.);
#151=ORIENTED_EDGE('',*,*,#120,.F.);
#152=ORIENTED_EDGE('',*,*,#121,.F.);
#153=ORIENTED_EDGE('',*,*,#122,.F.);
#154=ORIENTED_EDGE('',*,*,#123,.F.);
#155=ORIENTED_EDGE('',*,*,#124,.F.);
#156=ORIENTED_EDGE('',*,*,#123,.T.);
#157=ORIENTED_EDGE('',*,*,#125,.F.);
#158=ORIENTED_EDGE('',*,*,#121,.T.);
#159=ORIENTED_EDGE('',*,*,#126,.F.);
#160=ORIENTED_EDGE('',*,*,#114,.T.);
#161=ORIENTED_EDGE('',*,*,#127,.T.);
#162=ORIENTED_EDGE('',*,*,#128,.T.);
#163=ORIENTED_EDGE('',*,*,#127,.F.);
#164=ORIENTED_EDGE('',*,*,#129,.F.);
#165=ORIENTED_EDGE('',*,*,#128,.F.);
#166=ORIENTED_EDGE('',*,*,#130,.T.);
#167=ORIENTED_EDGE('',*,*,#131,.T.);
#168=ORIENTED_EDGE('',*,*,#129,.T.);
#169=ORIENTED_EDGE('',*,*,#131,.F.);
#170=ORIENTED_EDGE('',*,*,#132,.T.);
#171=ORIENTED_EDGE('',*,*,#133,.F.);
#172=ORIENTED_EDGE('',*,*,#134,.F.);
#173=ORIENTED_EDGE('',*,*,#135,.T.);
#174=ORIENTED_EDGE('',*,*,#132,.F.);
#175=ORIENTED_EDGE('',*,*,#130,.F.);
#176=ORIENTED_EDGE('',*,*,#135,.F.);
#177=ORIENTED_EDGE('',*,*,#133,.T.);
#178=ORIENTED_EDGE('',*,*,#134,.T.);
#179=ORIENTED_EDGE('',*,*,#136,.T.);
#180=ORIENTED_EDGE('',*,*,#118,.F.);
#181=ORIENTED_EDGE('',*,*,#119,.F.);
#182=ORIENTED_EDGE('',*,*,#136,.F.);
#183=ORIENTED_EDGE('',*,*,#137,.F.);
#184=ORIENTED_EDGE('',*,*,#138,.F.);
#185=ORIENTED_EDGE('',*,*,#139,.T.);
#186=ORIENTED_EDGE('',*,*,#112,.T.);
#187=ORIENTED_EDGE('',*,*,#139,.F.);
#188=ORIENTED_EDGE('',*,*,#122,.T.);
#189=ORIENTED_EDGE('',*,*,#124,.T.);
#190=ORIENTED_EDGE('',*,*,#140,.T.);
#191=ORIENTED_EDGE('',*,*,#137,.T.);
#192=ORIENTED_EDGE('',*,*,#138,.T.);
#193=ORIENTED_EDGE('',*,*,#140,.F.);
#194=ORIENTED_EDGE('',*,*,#126,.T.);
#195=ORIENTED_EDGE('',*,*,#120,.T.);
#196=ORIENTED_EDGE('',*,*,#125,.T.);
#197=ORIENTED_EDGE('',*,*,#115,.T.);
#198=ORIENTED_EDGE('',*,*,#116,.T.);
#199=ORIENTED_EDGE('',*,*,#141,.T.);
#200=ORIENTED_EDGE('',*,*,#113,.F.);
#201=ORIENTED_EDGE('',*,*,#141,.F.);
#202=PLANE('',#244);
#203=PLANE('',#247);
#204=PLANE('',#254);
#205=PLANE('',#256);
#206=PLANE('',#264);
#207=ADVANCED_FACE('',(#41,#39),#202,.F.);
#208=ADVANCED_FACE('',(#42),#203,.F.);
#209=ADVANCED_FACE('',(#43),#35,.T.);
#210=ADVANCED_FACE('',(#44),#204,.F.);
#211=ADVANCED_FACE('',(#45),#205,.T.);
#212=ADVANCED_FACE('',(#46),#36,.F.);
#213=ADVANCED_FACE('',(#47),#18,.F.);
#214=ADVANCED_FACE('',(#48,#40),#206,.T.);
#215=ADVANCED_FACE('',(#49),#19,.T.);
#216=ADVANCED_FACE('',(#50),#37,.T.);
#217=ADVANCED_FACE('',(#51),#20,.T.);
#218=ADVANCED_FACE('',(#52),#38,.T.);
#219=ADVANCED_FACE('',(#53),#17,.F.);
#220=ADVANCED_FACE('',(#54),#15,.T.);
#221=CLOSED_SHELL('',(#207,#208,#209,#210,#211,#212,#213,#214,#215,#216,
#217,#218,#219,#220));
#222=DERIVED_UNIT_ELEMENT(#225,1.);
#223=DERIVED_UNIT_ELEMENT(#494,-3.);
#224=DIMENSIONAL_EXPONENTS(0.,1.,0.,0.,0.,0.,0.);
#225=(
CONVERSION_BASED_UNIT('gram',#227)
MASS_UNIT()
NAMED_UNIT(#224)
);
#226=(
MASS_UNIT()
NAMED_UNIT(*)
SI_UNIT(.KILO.,.GRAM.)
);
#227=MASS_MEASURE_WITH_UNIT(MASS_MEASURE(0.001),#226);
#228=DERIVED_UNIT((#222,#223));
#229=MEASURE_REPRESENTATION_ITEM('density measure',
POSITIVE_RATIO_MEASURE(1.),#228);
#230=PROPERTY_DEFINITION_REPRESENTATION(#235,#232);
#231=PROPERTY_DEFINITION_REPRESENTATION(#236,#233);
#232=REPRESENTATION('material name',(#234),#491);
#233=REPRESENTATION('density',(#229),#491);
#234=DESCRIPTIVE_REPRESENTATION_ITEM('\X2\04220438043F043E0432044B0435\X0\',
'\X2\04220438043F043E0432044B0435\X0\');
#235=PROPERTY_DEFINITION('material property','material name',#501);
#236=PROPERTY_DEFINITION('material property','density of part',#501);
#237=DATE_TIME_ROLE('creation_date');
#238=APPLIED_DATE_AND_TIME_ASSIGNMENT(#239,#237,(#501));
#239=DATE_AND_TIME(#240,#241);
#240=CALENDAR_DATE(2023,9,10);
#241=LOCAL_TIME(11,30,51.,#242);
#242=COORDINATED_UNIVERSAL_TIME_OFFSET(0,0,.BEHIND.);
#243=AXIS2_PLACEMENT_3D('',#354,#278,#279);
#244=AXIS2_PLACEMENT_3D('',#355,#280,#281);
#245=AXIS2_PLACEMENT_3D('',#357,#282,#283);
#246=AXIS2_PLACEMENT_3D('',#359,#284,#285);
#247=AXIS2_PLACEMENT_3D('',#360,#286,#287);
#248=AXIS2_PLACEMENT_3D('',#362,#288,#289);
#249=AXIS2_PLACEMENT_3D('',#363,#290,#291);
#250=AXIS2_PLACEMENT_3D('',#366,#292,#293);
#251=AXIS2_PLACEMENT_3D('',#367,#294,#295);
#252=AXIS2_PLACEMENT_3D('',#371,#297,#298);
#253=AXIS2_PLACEMENT_3D('',#372,#299,#300);
#254=AXIS2_PLACEMENT_3D('',#373,#301,#302);
#255=AXIS2_PLACEMENT_3D('',#398,#303,#304);
#256=AXIS2_PLACEMENT_3D('',#399,#305,#306);
#257=AXIS2_PLACEMENT_3D('',#424,#307,#308);
#258=AXIS2_PLACEMENT_3D('',#425,#309,#310);
#259=AXIS2_PLACEMENT_3D('',#427,#311,#312);
#260=AXIS2_PLACEMENT_3D('',#428,#313,#314);
#261=AXIS2_PLACEMENT_3D('',#429,#315,#316);
#262=AXIS2_PLACEMENT_3D('',#430,#317,#318);
#263=AXIS2_PLACEMENT_3D('',#433,#320,#321);
#264=AXIS2_PLACEMENT_3D('',#434,#322,#323);
#265=AXIS2_PLACEMENT_3D('',#436,#324,#325);
#266=AXIS2_PLACEMENT_3D('',#437,#326,#327);
#267=AXIS2_PLACEMENT_3D('',#440,#328,#329);
#268=AXIS2_PLACEMENT_3D('',#442,#331,#332);
#269=AXIS2_PLACEMENT_3D('',#443,#333,#334);
#270=AXIS2_PLACEMENT_3D('',#446,#335,#336);
#271=AXIS2_PLACEMENT_3D('',#447,#337,#338);
#272=AXIS2_PLACEMENT_3D('',#449,#340,#341);
#273=AXIS2_PLACEMENT_3D('',#451,#343,#344);
#274=AXIS2_PLACEMENT_3D('',#454,#345,#346);
#275=AXIS2_PLACEMENT_3D('',#455,#347,#348);
#276=AXIS2_PLACEMENT_3D('',#487,#350,#351);
#277=AXIS2_PLACEMENT_3D('',#488,#352,#353);
#278=DIRECTION('axis',(0.,0.,1.));
#279=DIRECTION('refdir',(1.,0.,0.));
#280=DIRECTION('center_axis',(0.,1.,0.));
#281=DIRECTION('ref_axis',(0.,0.,1.));
#282=DIRECTION('center_axis',(0.,1.,0.));
#283=DIRECTION('ref_axis',(1.,0.,0.));
#284=DIRECTION('center_axis',(-3.06161699786838E-17,1.,3.06161699786838E-17));
#285=DIRECTION('ref_axis',(0.,3.06161699786838E-17,-1.));
#286=DIRECTION('center_axis',(0.,1.,0.));
#287=DIRECTION('ref_axis',(0.,0.,1.));
#288=DIRECTION('center_axis',(0.,1.,0.));
#289=DIRECTION('ref_axis',(1.,0.,0.));
#290=DIRECTION('center_axis',(0.,1.,0.));
#291=DIRECTION('ref_axis',(-1.,0.,0.));
#292=DIRECTION('center_axis',(0.,1.,0.));
#293=DIRECTION('ref_axis',(-1.,0.,0.));
#294=DIRECTION('center_axis',(0.,1.,0.));
#295=DIRECTION('ref_axis',(-1.,0.,0.));
#296=DIRECTION('',(0.,-1.,0.));
#297=DIRECTION('center_axis',(0.,1.,0.));
#298=DIRECTION('ref_axis',(1.,0.,0.));
#299=DIRECTION('center_axis',(0.,1.,0.));
#300=DIRECTION('ref_axis',(1.,0.,0.));
#301=DIRECTION('center_axis',(1.,0.,0.));
#302=DIRECTION('ref_axis',(0.,0.,-1.));
#303=DIRECTION('center_axis',(1.,0.,0.));
#304=DIRECTION('ref_axis',(0.,1.,0.));
#305=DIRECTION('center_axis',(1.,0.,0.));
#306=DIRECTION('ref_axis',(0.,0.,-1.));
#307=DIRECTION('center_axis',(-1.,0.,0.));
#308=DIRECTION('ref_axis',(0.,1.,0.));
#309=DIRECTION('center_axis',(1.,0.,0.));
#310=DIRECTION('ref_axis',(0.,-1.,-1.22464679914735E-16));
#311=DIRECTION('center_axis',(5.32710825567046E-7,-0.963447855108855,-0.267895932193572));
#312=DIRECTION('ref_axis',(1.43228950905349E-6,0.26789593219407,-0.963447855107799));
#313=DIRECTION('center_axis',(0.,-0.963431287520648,0.267955507923064));
#314=DIRECTION('ref_axis',(-0.0172283764297238,0.267915738102867,0.963288295538979));
#315=DIRECTION('center_axis',(-5.32710826756893E-7,-0.963447855108929,-0.267895932193306));
#316=DIRECTION('ref_axis',(0.0172298094231635,0.267856155757222,-0.963304839337063));
#317=DIRECTION('center_axis',(0.,-1.,0.));
#318=DIRECTION('ref_axis',(1.,0.,0.));
#319=DIRECTION('',(-0.707106781186542,-0.707106781186553,-8.65956056235486E-17));
#320=DIRECTION('center_axis',(0.,-1.,0.));
#321=DIRECTION('ref_axis',(1.,0.,0.));
#322=DIRECTION('center_axis',(0.,-1.,0.));
#323=DIRECTION('ref_axis',(0.,0.,-1.));
#324=DIRECTION('center_axis',(0.,1.,0.));
#325=DIRECTION('ref_axis',(1.,0.,0.));
#326=DIRECTION('center_axis',(0.,1.,0.));
#327=DIRECTION('ref_axis',(1.,0.,0.));
#328=DIRECTION('center_axis',(0.,-1.,0.));
#329=DIRECTION('ref_axis',(1.,0.,0.));
#330=DIRECTION('',(0.707106781186547,-0.707106781186548,-8.65956056235493E-17));
#331=DIRECTION('center_axis',(0.,-1.,0.));
#332=DIRECTION('ref_axis',(1.,0.,0.));
#333=DIRECTION('center_axis',(0.,1.,0.));
#334=DIRECTION('ref_axis',(-1.,0.,0.));
#335=DIRECTION('center_axis',(0.,1.,0.));
#336=DIRECTION('ref_axis',(1.,0.,0.));
#337=DIRECTION('center_axis',(0.,1.,0.));
#338=DIRECTION('ref_axis',(1.,0.,0.));
#339=DIRECTION('',(0.,-1.,0.));
#340=DIRECTION('center_axis',(0.,-1.,0.));
#341=DIRECTION('ref_axis',(1.,0.,0.));
#342=DIRECTION('',(0.707106781186543,0.707106781186552,8.65956056235488E-17));
#343=DIRECTION('center_axis',(0.,1.,0.));
#344=DIRECTION('ref_axis',(-1.,0.,0.));
#345=DIRECTION('center_axis',(0.,1.,0.));
#346=DIRECTION('ref_axis',(1.,0.,0.));
#347=DIRECTION('center_axis',(0.,1.,0.));
#348=DIRECTION('ref_axis',(1.,0.,0.));
#349=DIRECTION('',(0.,-1.,0.));
#350=DIRECTION('center_axis',(6.12323399573677E-17,-1.,-6.12323399573677E-17));
#351=DIRECTION('ref_axis',(1.03178735875269E-13,5.35854250196154E-17,-1.));
#352=DIRECTION('center_axis',(-1.,-6.12323399573614E-17,-1.03302652170627E-13));
#353=DIRECTION('ref_axis',(-1.03302652170627E-13,-6.69817812745192E-17,
1.));
#354=CARTESIAN_POINT('',(0.,0.,0.));
#355=CARTESIAN_POINT('Origin',(-3.56326744271882,3.37644760654071,0.));
#356=CARTESIAN_POINT('',(30.4367325572812,3.37644760654071,-4.163799117101E-15));
#357=CARTESIAN_POINT('Origin',(-3.56326744271882,3.37644760654071,0.));
#358=CARTESIAN_POINT('',(-3.56326744271882,3.37644760654071,32.9566869434823));
#359=CARTESIAN_POINT('Origin',(-3.56326744271882,3.37644760654071,2.0444466538166E-17));
#360=CARTESIAN_POINT('Origin',(-3.56326744271882,-6.12355239345931,0.));
#361=CARTESIAN_POINT('',(-31.5632674427188,-6.12355239345931,3.42901103761259E-15));
#362=CARTESIAN_POINT('Origin',(-3.56326744271882,-6.12355239345931,0.));
#363=CARTESIAN_POINT('Origin',(-3.56326744271882,3.02644760654071,0.));
#364=CARTESIAN_POINT('',(-3.56326744272199,2.70868065357434,30.65));
#365=CARTESIAN_POINT('',(27.0867325572812,2.70868065357434,-3.75354243938664E-15));
#366=CARTESIAN_POINT('Origin',(-3.56326744271882,2.70868065357434,6.6778504621647E-33));
#367=CARTESIAN_POINT('Origin',(-3.56326744271882,2.70868065357434,6.6778504621647E-33));
#368=CARTESIAN_POINT('',(27.0867325572812,1.8764476065407,-3.75354243938664E-15));
#369=CARTESIAN_POINT('',(27.0867325572812,3.02644760654071,-3.75354243938664E-15));
#370=CARTESIAN_POINT('',(-34.2132674427188,1.8764476065407,0.));
#371=CARTESIAN_POINT('Origin',(-3.56326744271882,1.8764476065407,0.));
#372=CARTESIAN_POINT('Origin',(-3.56326744271882,1.8764476065407,0.));
#373=CARTESIAN_POINT('Origin',(-2.56326744271882,59.108440367136,0.));
#374=CARTESIAN_POINT('',(-2.56326744271882,8.7853503078858,-13.9917002051742));
#375=CARTESIAN_POINT('',(-2.56326744271882,8.7853503078858,13.9917002051742));
#376=CARTESIAN_POINT('Ctrl Pts',(-2.56326744271882,8.78535030788582,-13.9917002051742));
#377=CARTESIAN_POINT('Ctrl Pts',(-2.56326744271882,8.98614724668038,-11.6054179484229));
#378=CARTESIAN_POINT('Ctrl Pts',(-2.56326744271882,9.13559204416102,-9.21509887062086));
#379=CARTESIAN_POINT('Ctrl Pts',(-2.56326744271882,9.28204382419543,-5.63900978476183));
#380=CARTESIAN_POINT('Ctrl Pts',(-2.56326744272813,9.31791673337414,-4.4551249000491));
#381=CARTESIAN_POINT('Ctrl Pts',(-2.56326744272813,9.3493491964088,-2.85584731627227));
#382=CARTESIAN_POINT('Ctrl Pts',(-2.56326744272417,9.35596021867742,-2.44064369731551));
#383=CARTESIAN_POINT('Ctrl Pts',(-2.56326744272417,9.36466885004784,-1.72616389426844));
#384=CARTESIAN_POINT('Ctrl Pts',(-2.56326744271882,9.36751187578617,-1.42682981160919));
#385=CARTESIAN_POINT('Ctrl Pts',(-2.56326744271882,9.37210248559846,-0.751887358100281));
#386=CARTESIAN_POINT('Ctrl Pts',(-2.56326744271891,9.37338752236441,-0.375970462900704));
#387=CARTESIAN_POINT('Ctrl Pts',(-2.56326744271891,9.37338752236441,0.375970462900778));
#388=CARTESIAN_POINT('Ctrl Pts',(-2.56326744271881,9.37210248559846,0.751887358100246));
#389=CARTESIAN_POINT('Ctrl Pts',(-2.56326744271881,9.36751187578617,1.42682981160904));
#390=CARTESIAN_POINT('Ctrl Pts',(-2.56326744272415,9.36466885004783,1.72616389426844));
#391=CARTESIAN_POINT('Ctrl Pts',(-2.56326744272415,9.35596021867742,2.44064369731504));
#392=CARTESIAN_POINT('Ctrl Pts',(-2.56326744272813,9.34934919640882,2.85584731627157));
#393=CARTESIAN_POINT('Ctrl Pts',(-2.56326744272813,9.31791673337415,4.45512490004818));
#394=CARTESIAN_POINT('Ctrl Pts',(-2.56326744271882,9.28204382419547,5.63900978476051));
#395=CARTESIAN_POINT('Ctrl Pts',(-2.56326744271882,9.13559204416109,9.21509887061969));
#396=CARTESIAN_POINT('Ctrl Pts',(-2.56326744271882,8.98614724668042,11.6054179484223));
#397=CARTESIAN_POINT('Ctrl Pts',(-2.56326744271882,8.78535030788581,13.9917002051742));
#398=CARTESIAN_POINT('Origin',(-2.56326744271882,59.108440367136,0.));
#399=CARTESIAN_POINT('Origin',(-4.56326744271882,59.108440367136,0.));
#400=CARTESIAN_POINT('',(-4.56326744271882,8.7853503078858,13.9917002051742));
#401=CARTESIAN_POINT('',(-4.56326744271882,8.7853503078858,-13.9917002051742));
#402=CARTESIAN_POINT('Ctrl Pts',(-4.56326744271882,8.78535030788581,13.9917002051742));
#403=CARTESIAN_POINT('Ctrl Pts',(-4.56326744271882,8.98614724668052,11.6054179484211));
#404=CARTESIAN_POINT('Ctrl Pts',(-4.56326744271882,9.13559204416124,9.21509887061732));
#405=CARTESIAN_POINT('Ctrl Pts',(-4.56326744271882,9.28204382419555,5.63900978475787));
#406=CARTESIAN_POINT('Ctrl Pts',(-4.56326744270951,9.3179167333742,4.45512490004628));
#407=CARTESIAN_POINT('Ctrl Pts',(-4.56326744270951,9.34934919640883,2.85584731627053));
#408=CARTESIAN_POINT('Ctrl Pts',(-4.56326744271347,9.35596021867743,2.4406436973142));
#409=CARTESIAN_POINT('Ctrl Pts',(-4.56326744271347,9.36466885004784,1.72616389426784));
#410=CARTESIAN_POINT('Ctrl Pts',(-4.56326744271882,9.36751187578617,1.42682981160844));
#411=CARTESIAN_POINT('Ctrl Pts',(-4.56326744271882,9.37210248559848,0.751887358098142));
#412=CARTESIAN_POINT('Ctrl Pts',(-4.56326744271888,9.37338752236441,0.375970462899526));
#413=CARTESIAN_POINT('Ctrl Pts',(-4.56326744271888,9.37338752236441,-0.375970462899416));
#414=CARTESIAN_POINT('Ctrl Pts',(-4.56326744271882,9.37210248559848,-0.751887358097174));
#415=CARTESIAN_POINT('Ctrl Pts',(-4.56326744271882,9.36751187578619,-1.42682981160632));
#416=CARTESIAN_POINT('Ctrl Pts',(-4.56326744271348,9.36466885004786,-1.72616389426574));
#417=CARTESIAN_POINT('Ctrl Pts',(-4.56326744271348,9.35596021867747,-2.44064369731168));
#418=CARTESIAN_POINT('Ctrl Pts',(-4.56326744270951,9.34934919640888,-2.85584731626754));
#419=CARTESIAN_POINT('Ctrl Pts',(-4.56326744270951,9.31791673337437,-4.45512490003927));
#420=CARTESIAN_POINT('Ctrl Pts',(-4.56326744271882,9.28204382419587,-5.6390097847479));
#421=CARTESIAN_POINT('Ctrl Pts',(-4.56326744271882,9.13559204416176,-9.21509887060901));
#422=CARTESIAN_POINT('Ctrl Pts',(-4.56326744271882,8.98614724668087,-11.605417948417));
#423=CARTESIAN_POINT('Ctrl Pts',(-4.56326744271882,8.78535030788582,-13.9917002051742));
#424=CARTESIAN_POINT('Origin',(-4.56326744271882,59.108440367136,0.));
#425=CARTESIAN_POINT('Origin',(-3.56326744271882,59.108440367136,0.));
#426=CARTESIAN_POINT('',(-3.56326744271882,8.78765869849657,-14.));
#427=CARTESIAN_POINT('Origin',(-3.56335056438428,-6.75944676618553,41.912851271783));
#428=CARTESIAN_POINT('Origin',(-3.5632674427182,-6.76549043418225,-41.9211885959803));
#429=CARTESIAN_POINT('Origin',(-3.56318432105344,-6.7594467661551,41.9128512717334));
#430=CARTESIAN_POINT('Origin',(-3.56326744271882,-6.37355239345931,0.));
#431=CARTESIAN_POINT('',(-32.0632674427188,-6.62355239345931,-3.49024337756996E-15));
#432=CARTESIAN_POINT('',(-31.8132674427188,-6.37355239345931,-3.45962720759127E-15));
#433=CARTESIAN_POINT('Origin',(-3.56326744271882,-6.62355239345931,0.));
#434=CARTESIAN_POINT('Origin',(-35.0632674427188,-6.62355239345931,0.));
#435=CARTESIAN_POINT('',(-34.2132674427188,-6.62355239345931,3.75354243938664E-15));
#436=CARTESIAN_POINT('Origin',(-3.56326744271882,-6.62355239345931,0.));
#437=CARTESIAN_POINT('Origin',(-3.56326744271882,-6.19855239345931,0.));
#438=CARTESIAN_POINT('',(27.9367325572812,-5.7735523934593,-3.85763741731416E-15));
#439=CARTESIAN_POINT('',(-35.0632674427188,-5.7735523934593,3.85763741731416E-15));
#440=CARTESIAN_POINT('Origin',(-3.56326744271882,-5.7735523934593,0.));
#441=CARTESIAN_POINT('',(-34.6382674427188,-6.19855239345931,3.8055899283504E-15));
#442=CARTESIAN_POINT('Origin',(-3.56326744271882,-5.7735523934593,0.));
#443=CARTESIAN_POINT('Origin',(-3.56326744271882,-2.3735523934593,0.));
#444=CARTESIAN_POINT('',(-35.0632674427188,1.0264476065407,3.85763741731416E-15));
#445=CARTESIAN_POINT('',(27.9367325572812,1.0264476065407,-3.85763741731416E-15));
#446=CARTESIAN_POINT('Origin',(-3.56326744271882,1.0264476065407,0.));
#447=CARTESIAN_POINT('Origin',(-3.56326744271882,1.0264476065407,0.));
#448=CARTESIAN_POINT('',(27.9367325572812,-2.3735523934593,-3.85763741731416E-15));
#449=CARTESIAN_POINT('Origin',(-3.56326744271882,1.4514476065407,0.));
#450=CARTESIAN_POINT('',(-34.6382674427188,1.4514476065407,-3.8055899283504E-15));
#451=CARTESIAN_POINT('Origin',(-3.56326744271882,4.62644760654071,0.));
#452=CARTESIAN_POINT('',(-3.56326744271883,5.8764476065407,-34.));
#453=CARTESIAN_POINT('',(30.4367325572812,5.87644760654071,-4.163799117101E-15));
#454=CARTESIAN_POINT('Origin',(-3.56326744271882,5.87644760654071,0.));
#455=CARTESIAN_POINT('Origin',(-3.56326744271882,5.87644760654071,0.));
#456=CARTESIAN_POINT('',(30.4367325572812,4.62644760654071,-4.163799117101E-15));
#457=CARTESIAN_POINT('Ctrl Pts',(-3.56326744271882,5.8764476065407,-34.));
#458=CARTESIAN_POINT('Ctrl Pts',(-37.5632674427188,5.8764476065407,-34.));
#459=CARTESIAN_POINT('Ctrl Pts',(-37.5632674427188,5.8764476065407,0.));
#460=CARTESIAN_POINT('Ctrl Pts',(-37.5632674427188,5.8764476065407,34.));
#461=CARTESIAN_POINT('Ctrl Pts',(-3.56326744271882,5.8764476065407,34.));
#462=CARTESIAN_POINT('Ctrl Pts',(30.4367325572812,5.8764476065407,34.));
#463=CARTESIAN_POINT('Ctrl Pts',(30.4367325572812,5.8764476065407,0.));
#464=CARTESIAN_POINT('Ctrl Pts',(30.4367325572812,5.8764476065407,-34.));
#465=CARTESIAN_POINT('Ctrl Pts',(-3.56326744271882,5.8764476065407,-34.));
#466=CARTESIAN_POINT('Ctrl Pts',(-3.56326744271882,9.27243660453437,-17.6745840937377));
#467=CARTESIAN_POINT('Ctrl Pts',(-21.2378515364565,9.27243660453437,-17.6745840937377));
#468=CARTESIAN_POINT('Ctrl Pts',(-21.2378515364565,9.27243660453437,0.));
#469=CARTESIAN_POINT('Ctrl Pts',(-21.2378515364565,9.27243660453436,17.6745840937377));
#470=CARTESIAN_POINT('Ctrl Pts',(-3.56326744271882,9.27243660453436,17.6745840937377));
#471=CARTESIAN_POINT('Ctrl Pts',(14.1113166510189,9.27243660453436,17.6745840937377));
#472=CARTESIAN_POINT('Ctrl Pts',(14.1113166510189,9.27243660453437,0.));
#473=CARTESIAN_POINT('Ctrl Pts',(14.1113166510189,9.27243660453437,-17.6745840937377));
#474=CARTESIAN_POINT('Ctrl Pts',(-3.56326744271882,9.27243660453437,-17.6745840937377));
#475=CARTESIAN_POINT('Ctrl Pts',(-3.56326744271882,9.37338752236441,-1.00000000000002));
#476=CARTESIAN_POINT('Ctrl Pts',(-4.56326744271884,9.37338752236441,-1.00000000000002));
#477=CARTESIAN_POINT('Ctrl Pts',(-4.56326744271884,9.37338752236441,0.));
#478=CARTESIAN_POINT('Ctrl Pts',(-4.56326744271884,9.37338752236441,1.00000000000002));
#479=CARTESIAN_POINT('Ctrl Pts',(-3.56326744271882,9.37338752236441,1.00000000000002));
#480=CARTESIAN_POINT('Ctrl Pts',(-2.5632674427188,9.37338752236441,1.00000000000002));
#481=CARTESIAN_POINT('Ctrl Pts',(-2.5632674427188,9.37338752236441,0.));
#482=CARTESIAN_POINT('Ctrl Pts',(-2.5632674427188,9.37338752236441,-1.00000000000002));
#483=CARTESIAN_POINT('Ctrl Pts',(-3.56326744271882,9.37338752236441,-1.00000000000002));
#484=CARTESIAN_POINT('Ctrl Pts',(-3.56326744271882,8.78765869849461,-14.0000000000232));
#485=CARTESIAN_POINT('Ctrl Pts',(-3.56326744271882,7.93827686882957,-24.0882422603683));
#486=CARTESIAN_POINT('Ctrl Pts',(-3.56326744271882,5.8764476065407,-34.));
#487=CARTESIAN_POINT('Origin',(-3.56326744271882,2.70868065357434,6.6778504621647E-33));
#488=CARTESIAN_POINT('Origin',(-3.56326744272212,2.70868065357434,31.9));
#489=UNCERTAINTY_MEASURE_WITH_UNIT(LENGTH_MEASURE(0.01),#493,
'DISTANCE_ACCURACY_VALUE',
'Maximum model space distance between geometric entities at asserted c
onnectivities');
#490=UNCERTAINTY_MEASURE_WITH_UNIT(LENGTH_MEASURE(0.01),#493,
'DISTANCE_ACCURACY_VALUE',
'Maximum model space distance between geometric entities at asserted c
onnectivities');
#491=(
GEOMETRIC_REPRESENTATION_CONTEXT(3)
GLOBAL_UNCERTAINTY_ASSIGNED_CONTEXT((#489))
GLOBAL_UNIT_ASSIGNED_CONTEXT((#493,#495,#496))
REPRESENTATION_CONTEXT('','3D')
);
#492=(
GEOMETRIC_REPRESENTATION_CONTEXT(3)
GLOBAL_UNCERTAINTY_ASSIGNED_CONTEXT((#490))
GLOBAL_UNIT_ASSIGNED_CONTEXT((#493,#495,#496))
REPRESENTATION_CONTEXT('','3D')
);
#493=(
LENGTH_UNIT()
NAMED_UNIT(*)
SI_UNIT(.MILLI.,.METRE.)
);
#494=(
LENGTH_UNIT()
NAMED_UNIT(*)
SI_UNIT(.CENTI.,.METRE.)
);
#495=(
NAMED_UNIT(*)
PLANE_ANGLE_UNIT()
SI_UNIT($,.RADIAN.)
);
#496=(
NAMED_UNIT(*)
SI_UNIT($,.STERADIAN.)
SOLID_ANGLE_UNIT()
);
#497=SHAPE_DEFINITION_REPRESENTATION(#498,#499);
#498=PRODUCT_DEFINITION_SHAPE('',$,#501);
#499=SHAPE_REPRESENTATION('',(#243),#491);
#500=PRODUCT_DEFINITION_CONTEXT('part definition',#505,'design');
#501=PRODUCT_DEFINITION('\X2\0414043504420430043B044C\X0\17',
'\X2\0413041E04240420041E041C041004220418041A\X0\ \X2\04170420\X0\1-\X2\041B0420\X0\-
M',#502,#500);
#502=PRODUCT_DEFINITION_FORMATION('',$,#507);
#503=PRODUCT_RELATED_PRODUCT_CATEGORY(
'\X2\0413041E04240420041E041C041004220418041A\X0\ \X2\04170420\X0\1-\X2\041B0420\X0\-
M','\X2\0413041E04240420041E041C041004220418041A\X0\ \X2\04170420\X0\1
-\X2\041B0420\X0\-M',(#507));
#504=APPLICATION_PROTOCOL_DEFINITION('international standard',
'automotive_design',2009,#505);
#505=APPLICATION_CONTEXT(
'Core Data for Automotive Mechanical Design Process');
#506=PRODUCT_CONTEXT('part definition',#505,'mechanical');
#507=PRODUCT('\X2\0414043504420430043B044C\X0\17',
'\X2\0413041E04240420041E041C041004220418041A\X0\ \X2\04170420\X0\1-\X2\041B0420\X0\-
M',$,(#506));
#508=PRESENTATION_STYLE_ASSIGNMENT((#509));
#509=SURFACE_STYLE_USAGE(.BOTH.,#512);
#510=SURFACE_STYLE_RENDERING_WITH_PROPERTIES($,#516,(#511));
#511=SURFACE_STYLE_TRANSPARENT(0.);
#512=SURFACE_SIDE_STYLE('',(#513,#510));
#513=SURFACE_STYLE_FILL_AREA(#514);
#514=FILL_AREA_STYLE('',(#515));
#515=FILL_AREA_STYLE_COLOUR('',#516);
#516=COLOUR_RGB('',0.749019607843137,0.749019607843137,0.749019607843137);
ENDSEC;
END-ISO-10303-21;
